Razorblade Romances
Don't Fear The Reaper

Home

Guitar Tabs | Gallery | Contact Me | Biographies | News and Gossip | Bass Guitar Tabs | Synnin Viemaa | Discography | Mailbag | Lyrics

Enter subhead content here

HIM - Dont Fear (The Reaper)


Intro1 (3°giro)
  PIANO                                                 5x
|---------------------------|---------------------------|
|---------------------------|---------------------------|
|*--9--9--9--9--7--7--7--7--|--5--5--5--5--7--7--7--7--*|
|*--9--9--9--9--7--7--7--7--|--5--5--5--5--7--7--7--7--*|
|---7--7--7--7--5--5--5--5--|--3--3--3--3--5--5--5--5---|
|---------------------------|---------------------------|


Verse1       Chorus1
ORGAN 1   ORGAN 2
|--|--|--|--|------------------------||--------------------------|
|--|--|--|--|------------------------||--------------------------|
|--|--|--|--|------------------------||*-------------------------|
|--|--|--|--|-5--5--5--5--7--7--7--7-||*-9--9--9--9--7--7--7--7--|
|--|--|--|--|-3--3--3--3--5--5--5--5-||--7--7--7--7--5--5--5--5--|
|--|--|--|--|------------------------||--------------------------|


ORGAN 2                    7x                          
|--------------------------||--------------------------|
|--------------------------||--------------------------|
|-------------------------*||--------------------------|
|-5--5--5--5--7--7--7--7--*||--9--9--9--9--7--7--7--7--|
|-3--3--3--3--5--5--5--5---||--7--7--7--7--5--5--5--5--|
|--------------------------||--------------------------|


ORGAN 2                                      PIANO                           
|--------------------------|------|-------||---------|----------|
|--------------------------|------|-------||---------|----------|
|--------------------------|------|-------||---------|----------|
|--5--5--5--5--7--7--7--7--|--9---|-------||---------|----------|
|--3--3--3--3--5--5--5--5--|--7---|-------||---------|----------|
|--------------------------|------|-------||---------|----------|


Intro2 (2°giro)
PIANO                                                  4x
|---------------------------|---------------------------||
|---------------------------|---------------------------||
|*--9--9--9--9--7--7--7--7--|--5--5--5--5--7--7--7--7--*||
|*--9--9--9--9--7--7--7--7--|--5--5--5--5--7--7--7--7--*||
|---7--7--7--7--5--5--5--5--|--3--3--3--3--5--5--5--5---||
|---------------------------|---------------------------||


Verse2
ORGAN 1       ORGAN 2
3x
|--------|---------|---------|--------||---------||
|--------|---------|---------|--------||---------||
|--------|---------|---------|--------||*-------*||
|--------|---------|---------|--------||*-------*||
|--------|---------|---------|--------||---------||
|--------|---------|---------|--------||---------||


  Chorus2
  ORGAN 2
|------------------------||--------------------------|
|------------------------||--------------------------|
|------------------------||*-------------------------|
|-5--5--5--5--7--7--7--7-||*-9--9--9--9--7--7--7--7--|
|-3--3--3--3--5--5--5--5-||--7--7--7--7--5--5--5--5--|
|------------------------||--------------------------|


ORGAN 2                    7x                          
|--------------------------||--------------------------|
|--------------------------||--------------------------|
|-------------------------*||--------------------------|
|-5--5--5--5--7--7--7--7--*||--9--9--9--9--7--7--7--7--|
|-3--3--3--3--5--5--5--5---||--7--7--7--7--5--5--5--5--|
|--------------------------||--------------------------|


ORGAN 2                                  
|--------------------------|------|-------|
|--------------------------|------|-------|     Only Bridge
|--------------------------|------|-------|       BRIDGE
|--5--5--5--5--7--7--7--7--|--9---|-------|
|--3--3--3--3--5--5--5--5--|--7---|-------|
|--------------------------|------|-------|
    



    PIANO
|--------------|---------------|--------------|---------------|
|--------------|---------------|--------------|---------------|
|--------------|---------------|--------------|---------------|
|--------------|---------------|--------------|---------------|
|--------------|---------------|--------------|---------------|
|--------------|---------------|--------------|---------------|

  Intro3 (3°giro)
  PIANO                                                 5x
|---------------------------|---------------------------|
|---------------------------|---------------------------|
|*--9--9--9--9--7--7--7--7--|--5--5--5--5--7--7--7--7--*|
|*--9--9--9--9--7--7--7--7--|--5--5--5--5--7--7--7--7--*|
|---7--7--7--7--5--5--5--5--|--3--3--3--3--5--5--5--5---|
|---------------------------|---------------------------|


Verse3
ORGAN 1       ORGAN 2
3x
|--------|---------|---------|--------||---------||
|--------|---------|---------|--------||---------||
|--------|---------|---------|--------||*-------*||
|--------|---------|---------|--------||*-------*||
|--------|---------|---------|--------||---------||
|--------|---------|---------|--------||---------||


Chorus_End
ORGAN 2
|------------------------||--------------------------|
|------------------------||--------------------------|
|------------------------||*-------------------------|
|-5--5--5--5--7--7--7--7-||*-9--9--9--9--7--7--7--7--|
|-3--3--3--3--5--5--5--5-||--7--7--7--7--5--5--5--5--|
|------------------------||--------------------------|


ORGAN 2                   7x                          
|--------------------------||--------------------------|
|--------------------------||--------------------------|
|-------------------------*||--------------------------|
|-5--5--5--5--7--7--7--7--*||--9--9--9--9--7--7--7--7--|
|-3--3--3--3--5--5--5--5---||--7--7--7--7--5--5--5--5--|
|--------------------------||--------------------------|


ORGAN 2                                  
|--------------------------|------|-------|
|--------------------------|------|-------|
|--------------------------|------|-------|
|--5--5--5--5--7--7--7--7--|--9---|-------|
|--3--3--3--3--5--5--5--5--|--7---|-------|
|--------------------------|------|-------|





PIANO

E |-------12----------------|-------------------------|
B |----12----15----------15-|----------15----------15-|
G |-------------------14----|----12-14----------14----|
D |-14----------12-15-------|-------------12-15-------|
A |-------------------------|-15----------------------|
E |-------------------------|-------------------------|


ORGAN 1

E |-----|-0-|-----|-0---|
B |-1-3-|-0-|-1-0-|-0-3-|
G |-0-2-|-0-|-0---|-0-2-|
D |-2-4-|---|-2-4-|---4-|
A |-----|---|---5-|-----|
E |-----|---|-----|-----|


ORGAN 2

E |-----|-0---|
B |-1-3-|-0-3-|
G |-0-2-|-0-2-|
D |-2-4-|---4-|
A |-----|-----|
E |-----|-----|


BRIDGE

|-----3-----3-----|
|-1-4---1-4---1-4-|
|-----------------|
|-----------------|
|-----------------|
|-----------------|

|-3-----3-----3---|---2-----2-----2-|-----2-----2-----|-3-----3-----3---|
|---1-4---1-4---1-|-3---1-3---1-3---|-1-3---1-3---1-4-|---1-4---1-4---1-|
|-----------------|-----------------|-----------------|-----------------|
|-----------------|-----------------|-----------------|-----------------|
|-----------------|-----------------|-----------------|-----------------|
|-----------------|-----------------|-----------------|-----------------|

|---3-----3-----2-|-----2-----2-----|-2-----2-----3---|---3-----3------3-|
|-4---1-4---1-3---|-1-3---1-3---1-3-|---1-3---1-4---1-|-4---1-4---1-4----|
|-----------------|-----------------|-----------------|------------------|
|-----------------|-----------------|-----------------|------------------|
|-----------------|-----------------|-----------------|------------------|
|-----------------|-----------------|-----------------|------------------|

|-----3-----2-----|-2-----2-----2---|---2-----3-----3-|-----3-----3------|
|-1-4---1-3---1-3-|---1-3---1-3---1-|-3---1-4---1-4---|-1-4---1-4----1-4-|
|-----------------|-----------------|-----------------|------------------|
|-----------------|-----------------|-----------------|------------------|
|-----------------|-----------------|-----------------|------------------|
|-----------------|-----------------|-----------------|------------------|

|-3-----2-----2---|---2-----2-----2-|-----3-----3-----|
|---1-3---1-3---1-|-3---1-3---1-3---|-1-4---1-4---1-4-|
|-----------------|-----------------|-----------------|
|-----------------|-----------------|-----------------|
|-----------------|-----------------|-----------------|
|-----------------|-----------------|-----------------|

|-3-----3-----3---|---2-----2-----2-|-----2-----2-----|-3-----3-----3----|
|---1-4---1-4---1-|-3---1-3---1-3---|-1-3---1-3---1-4-|---1-4---1-4---1--|
|-----------------|-----------------|-----------------|------------------|
|-----------------|-----------------|-----------------|------------------|
|-----------------|-----------------|-----------------|------------------|
|-----------------|-----------------|-----------------|------------------|

|---3-----3-----2-|-----2-----2-----|-2-----2-----3-----|-3-----3-----3---|
|-4---1-4---1-3---|-1-3---1-3---1-3-|---1-3---1-4---1-4-|---1-4---1-4---1-|
|-----------------|-----------------|-------------------|-----------------|
|-----------------|-----------------|-------------------|-----------------|
|-----------------|-----------------|-------------------|-----------------|
|-----------------|-----------------|-------------------|-----------------|

|---3-----2-----2-|-----2-----2-----|-2-----3-----3---|---3-----3-----3-|
|-4---1-3---1-3---|-1-3---1-3---1-3-|---1-4---1-4---1-|-4---1-4---1-4---|
|-----------------|-----------------|-----------------|-----------------|
|-----------------|-----------------|-----------------|-----------------|
|-----------------|-----------------|-----------------|-----------------|
|-----------------|-----------------|-----------------|-----------------|

|-----2-----2-----|-2-----2-----2---|---3-----3-----3-|-----3-----3-10--|
|-1-3---1-3---1-3-|---1-3---1-3---1-|-4---1-4---1-4---|-1-4---1-4-------|
|-----------------|-----------------|-----------------|-----------------|
|-----------------|-----------------|-----------------|-----------------|
|-----------------|-----------------|-----------------|-----------------|
|-----------------|-----------------|-----------------|-----------------|

Enter supporting content here