Razorblade Romances
For You

Home

Guitar Tabs | Gallery | Contact Me | Biographies | News and Gossip | Bass Guitar Tabs | Synnin Viemaa | Discography | Mailbag | Lyrics

Enter subhead content here

Info: b -> Bending
       \ -> Slide up

                                             
E||---------------------------|--------------------------|
B||---------------------------|-----0--------------------| Clean
G||*--------------0--------2--|--------2-----0-----------| Guitar
D||*--------2--------2--------|--2--------2-----2--------|
A||------2-----2--------2-----|--------------------------|
E||---0-----------------------|--------------------0--2--|


                                                          G6               
|-------------------------|---------------------------||--0--|-----|
|-------------3-----------|-----1--------0--------3b--||--3--|-----|
|----------------0-----0--|--------2--------2--------*||--0--|-----|
|-------0-----------0-----|--2--------2--------2-----*||--2--|-----|
|----2-----2--------------|---------------------------||--2--|-----|
|-3-----------------------|---------------------------||--0--|-----|


VOICE                                                                         
CLEAN RIT
     B5                                     D5                  E5  
|---------------------|-------------------|------------------------|
|---------------------|-------------------|------------------------|
|*--------------------|-------------------|------------------------|
|*--9----9--9------9--|----9----9--9\-----|--12----12--12------14--|
|---9----9--9------9--|----9----9--9\-----|--12----12--12------14--|
|---7----7--7------7--|----7----7--7\-----|--10----10--10------12--|
                              Verse1

                              B5          C#5 D5    E5  
|-------------------------||-----------------------------|
|-------------------------||-----------------------------|
|------------------------*||*----------------------------|
|----14----14--14\-------*||*--9--9--9--9--11--12----14--|
|----14----14--14\--------||---9--9--9--9--11--12----14--|
|----12----12--12\--------||---7--7--7--7--9---10----12--|


  E5                    D5         B5          C#5 D5    E5  
|--------------------------------|----------------------------|
|--------------------------------|----------------------------|
|--------------------------------|----------------------------|
|----14--14--14--14--14--12--11--|--9--9--9--9--11--12--------|
|----14--14--14--14--14--12--11--|--9--9--9--9--11--12----12~-|
|----12--12--12--12--12--10--9---|--7--7--7--7--9---10--------| Chorus1
VOICE
CLEAN RIT                              
                               B5                                        
|---------------------------||-------------------|-----------------|
|---------------------------||-------------------|-----------------|
|--------------------------*||*------------------|-----------------|
|--------------------------*||*--9----9--9----9--|--9----9--9\-----|
|-12--12--10----10--7h9h7---||---9----9--9----9--|--9----9--9\-----|
|---------------------------||---7----7--7----7--|--7----7--7\-----|  D5                  E5                             
|--------------------------|-------------------------|
|--------------------------|-------------------------|
|--------------------------|------------------------*|
|--12------12--12------14--|----14----14--14\-------*|
|--12------12--12------14--|----14----14--14\--------|
|--10------10--10------12--|----12----12--12\--------|   Verse2

   B5          C#5 D5    E5                           D5      
|-----------------------------|--------------------------------|
|-----------------------------|--------------------------------|
|*----------------------------|--------------------------------|
|*--9--9--9--9--11--12----14--|----14--14--14--14--14--12--11--|
|---9--9--9--9--11--12----14--|----14--14--14--14--14--12--11--|
|---7--7--7--7--9---10----12--|----12--12--12--12--12--10--9---|


  B5          C#5 D5    E5                                  
|----------------------------|------------------------------|
|----------------------------|------------------------------|
|----------------------------|-----------------------------*|
|--9--9--9--9--11--12--------|-----------------------------*|
|--9--9--9--9--11--12----12~-|----12--12--10----10--7h9h7---|
|--7--7--7--7--9---10--------|------------------------------|

 

  Chorus2
  VOICE
  CLEAN RIT
  B5                                        
|-------------------|-----------------|
|-------------------|-----------------|
|*------------------|-----------------|
|*--9----9--9----9--|--9----9--9\-----|
|---9----9--9----9--|--9----9--9\-----|
|---7----7--7----7--|--7----7--7\-----|  D5                  E5                            x4 RIFF    
|--------------------------|-------------------------||--|--|--|--|
|--------------------------|-------------------------||--|--|--|--|
|--------------------------|------------------------*||--|--|--|--|
|--12------12--12------14--|----14----14--14\-------*||--|--|--|--|
|--12------12--12------14--|----14----14--14\--------||--|--|--|--|
|--10------10--10------12--|----12----12--12\--------||--|--|--|--| VOICE 2
|---------------------------|--------------------------|
|---------------------------|-----0--------------------|
|*--------------0--------2--|--------2-----0-----------|
|*--------2--------2--------|--2--------2-----2--------|
|------2-----2--------2-----|--------------------------|
|---0-----------------------|--------------------0--2--|


    Bridge

                                                      x4   E5     x4
|-------------------------|---------------------------||-----------|
|-------------3-----------|-----1--------0--------3b--||-----------|
|----------------0-----0--|--------2--------2--------*||*---------*|
|-------0-----------0-----|--2--------2--------2-----*||*---2-----*|
|----2-----2--------------|---------------------------||----2------|
|-3-----------------------|---------------------------||----0------|


Chorus3
VOICE                                                                         
CLEAN RIT
     B5                                     D5                  E5  
|---------------------|-------------------|------------------------|
|---------------------|-------------------|------------------------|
|*--------------------|-------------------|------------------------|
|*--9----9--9------9--|----9----9--9\-----|--12----12--12------14--|
|---9----9--9------9--|----9----9--9\-----|--12----12--12------14--|
|---7----7--7------7--|----7----7--7\-----|--10----10--10------12--|


                          x4 
|-------------------------||
|-------------------------||
|------------------------*||
|----14----14--14\-------*||
|----14----14--14\--------||
|----12----12--12\--------||
CLEAN RIT

||---------------------------|--------------------------|
||---------------------------|-----7--------------------|
||*--------------7--------9--|--------9-----7-----------|
||*--------9--------9--------|--9--------9-----9--------|
||------9-----9--------9-----|--------------------------|
||---7-----------------------|--------------------7--9--|


                                                          
----------------------------|----------------------------||
---------------10-----------|-----8--------7--------10b--||
-------------------7-----7--|--------9--------9---------*||
---------7------------7-----|--9--------9--------9------*||
------9-----9---------------|----------------------------||
--10------------------------|----------------------------||


RIFF

|-9-9-9-9-|-10-10-10-|-9-9-9-9-|-12-12-12-|
|-7-7-7-7-|-7--7--7--|-7-7-7-7-|-7--7--7--|
|---------|----------|---------|----------|
|---------|----------|---------|----------|
|---------|----------|---------|----------|
|---------|----------|---------|----------|


VOICE

|-7-10-|-9-3-|-2-|------|
|------|-----|---|------|
|------|-----|---|------|
|------|-----|---|------|
|------|-----|---|------|
|------|-----|---|------|


VOICE 2

|-0-3-|-2-8-|-7-|------|
|-----|---1-|-0-|------|
|-----|-----|---|------|
|-----|-----|---|------|
|-----|-----|---|------|
|-----|-----|---|------|

Enter supporting content here