Razorblade Romances
Beyond Redemption

Home

Guitar Tabs | Gallery | Contact Me | Biographies | News and Gossip | Bass Guitar Tabs | Synnin Viemaa | Discography | Mailbag | Lyrics

intro
e------------------------------------  x2  then e--------- once
B------------------------------------           B---------
G--5-5-5-5--8-8-8-8-------------6-6--           G---------
D--5-5-5-5--8-8-8-8-3-3-3-3-6-6-6-6--           D--5------
A--3-3-3-3--6-6-6-6-3-3-3-3-6-6-4-4--           A--5------
E-------------------1-1-1-1-4-4------           E--3------

ist guitar
                                               repeat on 2nd time
e--------------------------------------------  e-----------------
B--------------------------------------------  B-----------------
G--------------------------------------------  G--5--------------
D--------------------------------------------  D--5--------------
A-----------3-------------6-3----------3-----  A--3--------------
E---4-6-3-6---------4-6-3------4-6-3-6-------  E-----------------

chorus

e-------------------------------------  x2
B-------------------------------------
G--5-5-5-5-5-5-5-5--------------------
D--5-5-5-5-5-5-5-5-6-6-6-6-8-8-8-8----
A--3-3-3-3-3-3-3-3-6-6-6-6-8-8-8-8----
E------------------4-4-4-4-6-6-6-6----

e-------------------------------------
B-------------------------------------
G--5-5-5-5-5-5-5-5--------------------
D--5-3-3-3-3-3-3-3-5-5-5-5-5-5-5-5----
A--3-3-3-3-3-3-3-3-5-5-5-5-5-5-5-5----
E------------------3-3-3-3-3-3-3-3----

e-------------------------------------
B-------------------------------------
G--------------------------8-8-8-8--------
D--6-6-6-6-6-6-6-6-8-8-8-8-8-8-8-8--------------------
A--6-6-6-6-6-6-6-6-8-8-8-8-6-6-6-6--------------------
E--4-4-4-4-4-4-4-4-6-6-6-6------------------------