Razorblade Romances
And Love Said No

Home

Guitar Tabs | Gallery | Contact Me | Biographies | News and Gossip | Bass Guitar Tabs | Synnin Viemaa | Discography | Mailbag | Lyrics

INTRODUCTION** Guitar on is played with an echo, so it sounds like there
are extra notes, but these are what is played

e|--3-----3---------0----------2-----------------------0------------------|
b|----0-----0----------0----------0--------5^3---0------3--0-----------|
g|--------------0----------0----------0------------------------------------|
d|--------------------------------------------------------------------------|
a|--------------------------------------------------------------------------|
E|--------------------------------------------------------------------------|

e|----------------------------------------------------------------------|
b|----------------------------------------------------------------------|
g|----------------------------------------------------------------------|
e|----------------------------------------------------------------------|
a|----------------------------------------------------------------------|
E|---3b-3b--0-----------2-----------3-----------------3b-3b ------|

e|----------------------------------------------------------------------|
b|----------------------------------------------------------------------|
g|----------------------------------------------------------------------|
e|----------------------------------------------------------------------|
a|----------------------------------------------------------------------|
E|----0-----------2-----------3-----------------3b-3b --------------|

VERSE  **A bass is playing the main riff, but this is what the guitar is playing:
e|-------------------------------------------------------------------------------|
b|-------------------------------------------------------------------------1----|
g|------------0---------------0---------------0--------2--22-----2-----------|
e|--2-----4--------2-----4---------2-----4------------2--22-----2-----2----|
a|-------------------------------------------------------0--00-----0-----3----|
E|------------------------------------------------------------------------------|


e|--------------------------------------------------------------------------------|
b|--------------------------------------------------------------------------------|
g|------------0--------------0--------------0-------2---22----2---2----22----|
e|--2-----4--------2-----4-------2-----4-----------2---22----2---2----22----|
a|----------------------------------------------------0---00----0---0----00----|
E|--------------------------------------------------------------------------------|


CHORUS
Guitar 1:
e|----------------------------------------------------------------------|
b|----------------------------------------------------------------------|
g|----------------------------------------------------------------------|
e|----------------------------------------------------------------------|
a|----------------------------------------------------------------------|
E|---3b-3b--0-----------2-----------3-----------------3b-3b ------|
   x2

e|----------------------------------------------------------------------|
b|----------------------------------------------------------------------|
g|----------------------------------------------------------------------|
e|----------------------------------------------------------------------|
a|----------------------------------------------------------------------|
E|----0-----------2-----------3-----------------3b-3b --------------|

Guitar 2 (playing in background):
e|-----3---------0---------2-----------------------0--------------------|
b|--------0---------0---------0--------5^3---0-------3----0----------|
g|------------0---------0----------0------------------------------------|
d|------------------------------------------------------------------------|
a|------------------------------------------------------------------------|
E|------------------------------------------------------------------------|


AFTER SECOND CHORUS
e|----------------------------------------------------------------------|
b|----------------------------------------------------------------------|
g|----------------------------------------------------------------------|
e|----------------------------------------------------------------------|
a|----------------------------------------------------------------------|
E|---3b3-0---2---3b3-0---2---3b3--0-0--2------------------------|